ISO-10303-21;
HEADER;
FILE_DESCRIPTION(('FreeCAD Model'),'2;1');
FILE_NAME('Open CASCADE Shape Model','2022-04-07T12:49:16',(
    'kicad StepUp'),('ksu MCAD'),'Open CASCADE STEP processor 7.5',
  'FreeCAD','Unknown');
FILE_SCHEMA(('AUTOMOTIVE_DESIGN { 1 0 10303 214 1 1 1 1 }'));
ENDSEC;
DATA;
#1 = APPLICATION_PROTOCOL_DEFINITION('international standard',
  'automotive_design',2000,#2);
#2 = APPLICATION_CONTEXT(
  'core data for automotive mechanical design processes');
#3 = SHAPE_DEFINITION_REPRESENTATION(#4,#10);
#4 = PRODUCT_DEFINITION_SHAPE('','',#5);
#5 = PRODUCT_DEFINITION('design','',#6,#9);
#6 = PRODUCT_DEFINITION_FORMATION('','',#7);
#7 = PRODUCT('AdditivePipe','AdditivePipe','',(#8));
#8 = PRODUCT_CONTEXT('',#2,'mechanical');
#9 = PRODUCT_DEFINITION_CONTEXT('part definition',#2,'design');
#10 = ADVANCED_BREP_SHAPE_REPRESENTATION('',(#11,#15),#177);
#11 = AXIS2_PLACEMENT_3D('',#12,#13,#14);
#12 = CARTESIAN_POINT('',(0.,0.,0.));
#13 = DIRECTION('',(0.,0.,1.));
#14 = DIRECTION('',(1.,0.,-0.));
#15 = MANIFOLD_SOLID_BREP('',#16);
#16 = CLOSED_SHELL('',(#17,#34,#62,#92,#117,#143,#168));
#17 = ADVANCED_FACE('',(#18),#29,.T.);
#18 = FACE_BOUND('',#19,.T.);
#19 = EDGE_LOOP('',(#20));
#20 = ORIENTED_EDGE('',*,*,#21,.T.);
#21 = EDGE_CURVE('',#22,#22,#24,.T.);
#22 = VERTEX_POINT('',#23);
#23 = CARTESIAN_POINT('',(0.375,-40.,0.));
#24 = CIRCLE('',#25,0.375);
#25 = AXIS2_PLACEMENT_3D('',#26,#27,#28);
#26 = CARTESIAN_POINT('',(0.,-40.,0.));
#27 = DIRECTION('',(0.,1.083078813002E-05,-0.999999999941));
#28 = DIRECTION('',(1.,0.,0.));
#29 = PLANE('',#30);
#30 = AXIS2_PLACEMENT_3D('',#31,#32,#33);
#31 = CARTESIAN_POINT('',(1.922962686384E-16,-40.,6.004961364046E-22));
#32 = DIRECTION('',(1.322899611399E-21,1.083078813002E-05,
    -0.999999999941));
#33 = DIRECTION('',(0.,-0.999999999941,-1.083078813002E-05));
#34 = ADVANCED_FACE('',(#35),#54,.F.);
#35 = FACE_BOUND('',#36,.F.);
#36 = EDGE_LOOP('',(#37,#45,#52,#53));
#37 = ORIENTED_EDGE('',*,*,#38,.T.);
#38 = EDGE_CURVE('',#22,#39,#41,.T.);
#39 = VERTEX_POINT('',#40);
#40 = CARTESIAN_POINT('',(0.375,-40.,3.));
#41 = LINE('',#42,#43);
#42 = CARTESIAN_POINT('',(0.375,-40.,3.));
#43 = VECTOR('',#44,1.);
#44 = DIRECTION('',(0.,0.,1.));
#45 = ORIENTED_EDGE('',*,*,#46,.F.);
#46 = EDGE_CURVE('',#39,#39,#47,.T.);
#47 = CIRCLE('',#48,0.375);
#48 = AXIS2_PLACEMENT_3D('',#49,#50,#51);
#49 = CARTESIAN_POINT('',(0.,-40.,3.));
#50 = DIRECTION('',(0.,1.083078813002E-05,-0.999999999941));
#51 = DIRECTION('',(1.,0.,0.));
#52 = ORIENTED_EDGE('',*,*,#38,.F.);
#53 = ORIENTED_EDGE('',*,*,#21,.T.);
#54 = SURFACE_OF_LINEAR_EXTRUSION('',#55,#60);
#55 = CIRCLE('',#56,0.375);
#56 = AXIS2_PLACEMENT_3D('',#57,#58,#59);
#57 = CARTESIAN_POINT('',(0.,-40.,3.));
#58 = DIRECTION('',(0.,1.083078813002E-05,-0.999999999941));
#59 = DIRECTION('',(1.,0.,0.));
#60 = VECTOR('',#61,1.);
#61 = DIRECTION('',(0.,0.,1.));
#62 = ADVANCED_FACE('',(#63),#83,.T.);
#63 = FACE_BOUND('',#64,.T.);
#64 = EDGE_LOOP('',(#65,#74,#81,#82));
#65 = ORIENTED_EDGE('',*,*,#66,.T.);
#66 = EDGE_CURVE('',#39,#67,#69,.T.);
#67 = VERTEX_POINT('',#68);
#68 = CARTESIAN_POINT('',(0.375,-39.39999350152,3.599999999965));
#69 = CIRCLE('',#70,0.6);
#70 = AXIS2_PLACEMENT_3D('',#71,#72,#73);
#71 = CARTESIAN_POINT('',(0.375,-39.4,3.));
#72 = DIRECTION('',(-1.,0.,0.));
#73 = DIRECTION('',(0.,1.,0.));
#74 = ORIENTED_EDGE('',*,*,#75,.T.);
#75 = EDGE_CURVE('',#67,#67,#76,.T.);
#76 = CIRCLE('',#77,0.375);
#77 = AXIS2_PLACEMENT_3D('',#78,#79,#80);
#78 = CARTESIAN_POINT('',(0.,-39.39999350152,3.599999999965));
#79 = DIRECTION('',(0.,-1.,1.259199179388E-17));
#80 = DIRECTION('',(1.,0.,0.));
#81 = ORIENTED_EDGE('',*,*,#66,.F.);
#82 = ORIENTED_EDGE('',*,*,#46,.F.);
#83 = SURFACE_OF_REVOLUTION('',#84,#89);
#84 = CIRCLE('',#85,0.375);
#85 = AXIS2_PLACEMENT_3D('',#86,#87,#88);
#86 = CARTESIAN_POINT('',(0.,-38.8,3.));
#87 = DIRECTION('',(0.,-1.08307881299E-05,0.999999999941));
#88 = DIRECTION('',(1.,0.,0.));
#89 = AXIS1_PLACEMENT('',#90,#91);
#90 = CARTESIAN_POINT('',(0.,-39.4,3.));
#91 = DIRECTION('',(-1.,0.,0.));
#92 = ADVANCED_FACE('',(#93),#112,.T.);
#93 = FACE_BOUND('',#94,.T.);
#94 = EDGE_LOOP('',(#95,#103,#110,#111));
#95 = ORIENTED_EDGE('',*,*,#96,.T.);
#96 = EDGE_CURVE('',#67,#97,#99,.T.);
#97 = VERTEX_POINT('',#98);
#98 = CARTESIAN_POINT('',(0.375,39.4,3.599999999982));
#99 = LINE('',#100,#101);
#100 = CARTESIAN_POINT('',(0.375,-39.39999350152,3.599999999965));
#101 = VECTOR('',#102,1.);
#102 = DIRECTION('',(0.,1.,0.));
#103 = ORIENTED_EDGE('',*,*,#104,.F.);
#104 = EDGE_CURVE('',#97,#97,#105,.T.);
#105 = CIRCLE('',#106,0.375);
#106 = AXIS2_PLACEMENT_3D('',#107,#108,#109);
#107 = CARTESIAN_POINT('',(0.,39.4,3.599999999965));
#108 = DIRECTION('',(-0.,1.,0.));
#109 = DIRECTION('',(1.,0.,0.));
#110 = ORIENTED_EDGE('',*,*,#96,.F.);
#111 = ORIENTED_EDGE('',*,*,#75,.F.);
#112 = CYLINDRICAL_SURFACE('',#113,0.375);
#113 = AXIS2_PLACEMENT_3D('',#114,#115,#116);
#114 = CARTESIAN_POINT('',(0.,-39.39999350152,3.599999999965));
#115 = DIRECTION('',(0.,1.,0.));
#116 = DIRECTION('',(1.,0.,0.));
#117 = ADVANCED_FACE('',(#118),#138,.T.);
#118 = FACE_BOUND('',#119,.T.);
#119 = EDGE_LOOP('',(#120,#129,#136,#137));
#120 = ORIENTED_EDGE('',*,*,#121,.T.);
#121 = EDGE_CURVE('',#97,#122,#124,.T.);
#122 = VERTEX_POINT('',#123);
#123 = CARTESIAN_POINT('',(0.375,40.,3.));
#124 = CIRCLE('',#125,0.6);
#125 = AXIS2_PLACEMENT_3D('',#126,#127,#128);
#126 = CARTESIAN_POINT('',(0.375,39.4,3.));
#127 = DIRECTION('',(-1.,0.,0.));
#128 = DIRECTION('',(0.,1.,0.));
#129 = ORIENTED_EDGE('',*,*,#130,.T.);
#130 = EDGE_CURVE('',#122,#122,#131,.T.);
#131 = CIRCLE('',#132,0.375);
#132 = AXIS2_PLACEMENT_3D('',#133,#134,#135);
#133 = CARTESIAN_POINT('',(0.,40.,3.));
#134 = DIRECTION('',(0.,-2.449293598295E-16,1.));
#135 = DIRECTION('',(0.,1.,2.449293598295E-16));
#136 = ORIENTED_EDGE('',*,*,#121,.F.);
#137 = ORIENTED_EDGE('',*,*,#104,.T.);
#138 = TOROIDAL_SURFACE('',#139,0.6,0.375);
#139 = AXIS2_PLACEMENT_3D('',#140,#141,#142);
#140 = CARTESIAN_POINT('',(0.,39.4,3.));
#141 = DIRECTION('',(-1.,0.,0.));
#142 = DIRECTION('',(0.,1.,0.));
#143 = ADVANCED_FACE('',(#144),#163,.T.);
#144 = FACE_BOUND('',#145,.T.);
#145 = EDGE_LOOP('',(#146,#154,#161,#162));
#146 = ORIENTED_EDGE('',*,*,#147,.T.);
#147 = EDGE_CURVE('',#122,#148,#150,.T.);
#148 = VERTEX_POINT('',#149);
#149 = CARTESIAN_POINT('',(0.375,40.,0.));
#150 = LINE('',#151,#152);
#151 = CARTESIAN_POINT('',(0.375,40.,3.));
#152 = VECTOR('',#153,1.);
#153 = DIRECTION('',(0.,0.,-1.));
#154 = ORIENTED_EDGE('',*,*,#155,.T.);
#155 = EDGE_CURVE('',#148,#148,#156,.T.);
#156 = CIRCLE('',#157,0.375);
#157 = AXIS2_PLACEMENT_3D('',#158,#159,#160);
#158 = CARTESIAN_POINT('',(0.,40.,0.));
#159 = DIRECTION('',(0.,-1.694065894509E-21,1.));
#160 = DIRECTION('',(1.,0.,0.));
#161 = ORIENTED_EDGE('',*,*,#147,.F.);
#162 = ORIENTED_EDGE('',*,*,#130,.F.);
#163 = CYLINDRICAL_SURFACE('',#164,0.375);
#164 = AXIS2_PLACEMENT_3D('',#165,#166,#167);
#165 = CARTESIAN_POINT('',(0.,40.,3.));
#166 = DIRECTION('',(0.,0.,-1.));
#167 = DIRECTION('',(1.,0.,0.));
#168 = ADVANCED_FACE('',(#169),#172,.F.);
#169 = FACE_BOUND('',#170,.F.);
#170 = EDGE_LOOP('',(#171));
#171 = ORIENTED_EDGE('',*,*,#155,.T.);
#172 = PLANE('',#173);
#173 = AXIS2_PLACEMENT_3D('',#174,#175,#176);
#174 = CARTESIAN_POINT('',(-2.136625207093E-17,40.,-2.593290469068E-38)
  );
#175 = DIRECTION('',(2.821186441973E-37,-1.694065894509E-21,1.));
#176 = DIRECTION('',(0.,1.,1.694065894509E-21));
#177 = ( GEOMETRIC_REPRESENTATION_CONTEXT(3) 
GLOBAL_UNCERTAINTY_ASSIGNED_CONTEXT((#181)) GLOBAL_UNIT_ASSIGNED_CONTEXT
((#178,#179,#180)) REPRESENTATION_CONTEXT('Context #1',
  '3D Context with UNIT and UNCERTAINTY') );
#178 = ( LENGTH_UNIT() NAMED_UNIT(*) SI_UNIT(.MILLI.,.METRE.) );
#179 = ( NAMED_UNIT(*) PLANE_ANGLE_UNIT() SI_UNIT($,.RADIAN.) );
#180 = ( NAMED_UNIT(*) SI_UNIT($,.STERADIAN.) SOLID_ANGLE_UNIT() );
#181 = UNCERTAINTY_MEASURE_WITH_UNIT(LENGTH_MEASURE(1.E-07),#178,
  'distance_accuracy_value','confusion accuracy');
#182 = PRODUCT_RELATED_PRODUCT_CATEGORY('part',$,(#7));
#183 = MECHANICAL_DESIGN_GEOMETRIC_PRESENTATION_REPRESENTATION('',(#184)
  ,#177);
#184 = STYLED_ITEM('color',(#185),#15);
#185 = PRESENTATION_STYLE_ASSIGNMENT((#186,#192));
#186 = SURFACE_STYLE_USAGE(.BOTH.,#187);
#187 = SURFACE_SIDE_STYLE('',(#188));
#188 = SURFACE_STYLE_FILL_AREA(#189);
#189 = FILL_AREA_STYLE('',(#190));
#190 = FILL_AREA_STYLE_COLOUR('',#191);
#191 = COLOUR_RGB('',0.585567932567,0.585567932567,0.585567932567);
#192 = CURVE_STYLE('',#193,POSITIVE_LENGTH_MEASURE(0.1),#194);
#193 = DRAUGHTING_PRE_DEFINED_CURVE_FONT('continuous');
#194 = COLOUR_RGB('',0.345868924627,0.345868924627,0.345868924627);
ENDSEC;
END-ISO-10303-21;
